STREBERS ACKORD

39 Steg


- 39 STEG -


riff:

Cm....D#....G#....Fm..Gm..

vers:

Cm....G#....A#..G..Cm..Cm.D.

D#....A#....G#....G....

slag innan ref:

Cm..A#..G....

refräng:

Cm....D#....G#..D#..Fm....

folkmusik-slinga:

Cm....G3....A#....F3....
G....Adim....A#....Bdim....

riff:

E-----------------------------------------------------------------
B-----------------------------------------------------------------
G-----------------------------------------------------------------
D---------5--------------5-5-------------6-5-----------5-------
A--3---6---6-5-------6------6-5-3---6------6-8---8----6-5--
E-----------------3-----------------------------------------------



- ALLA VACKRA BARN -


melodi-slinga och vers:

A#....A#....F....Gm....
D#....D#....A#....F....

riff innan refräng:

A#..E.F..E.Gm....Gm....
A#..E.F..E.Gm....Gm...A.A#....

refräng:

Gm....Gm....D#....D#....
A#....A#....F....F....

melodi-slinga:

E---------------------------------------------------------------------------------------------------------------------------------------------------
B---------------------------------------------------------------------------------------------------------------------------------------------------
G---------------------------------------------------------------------------------------------------------------------------------------------------
D--------------------------------------1--1--1-1--0--1-3--1--0-------------------------------------------1--1--1-1--0--1-3--1--0-0--------
A--1--1--1-1--0--1-3--1--0--------------------------------------3-----1--1--1-1--0--1-3--1--0---------------------------------------0-1--
E--------------------------------3-----------------------------------------------------------------------3-----------------------------------------


melodi-slinga (gitarr 2, andra hälften):

E-------------------------------------------------------------------------------
B-------------------------------------------------------------------------------
G-------------------------------------------------------------------------------
D--------------------------------------5--5--5-5--3--5-6--5--3-3-----------
A--5--5--5-5--3--5-6--5--3-1--------------------------------------0--1----
E--------------------------------------------------------------------------------



- ATOMBOMBSFÖRÄLSKELSEN -


vers och riff:

A#..F.Gm....D#....A#....
C........C/A..C/G..F....

melodi-slinga:

A#....A#....A#....A#....
Gm....Gm....D....D....

brygga:

Dm....Dm....D#....D#....
F....F....A#....F....

refräng:

Gm....Gm....D#....F....

slutrefräng:

A#..F.Gm....D#....F....

melodi-slinga:

E----------------------------------------------------------------------------------
B----------------------------------------------------------------------------------
G----------------------------------------------------------------------------------
D------------------------------------------------------------1-0--1-3--1-0------
A--1-1--1-1--0------1-1--1-1--0------1-1--1-1--0-1-------------------------
E------------------1------------------1--------------------------------------------



- BALANSGÅNG -


början (och i mitten):

Dm....Dm....Dm....C....

riff och refräng:

Dm....Am....F....C....

vers:

Dm....Dm....A#....C....

riff (och sista delen av refrängerna):

E--------------------------------------------------
B--------------------------------------------------
G--7--7--7-9--9--9-10--10--10--9---9--9-----
D--7--7--7-7--7--7-10--10--10-10-10-10----
A--------------------------------------------------
E---------------------------------------------------



- BALLADEN OM LILLA ELSA -


melodi-slinga:

Am....Am....Dm....Am....
Am....Am....F....E....
Am....Am....Dm....Am....
F....E....Am....Am....

vers:

Am....E....C....G....
C....E....Am....Am....

brygga:

Am....Am....Dm....Am....
Dm....Am....G....G....
Am....Am....Dm....Am....
F....E....Am....Am....

refräng:

F....C....Dm....Am....
F....C....Am..E..E/G#..Am..

melodi-slinga:

E------------------------------------------------------------------------------------------------------------------------
B------------------------------------------------------------------------------------------------------------------------
G------------------------------------------------------------------------------------------------------------------------
D-----2-2---2-0-2-3-0-2----------2-2---2-3-2-0------------------2-2---2-0-2-3-0-2-----------------------------
A--0------------------------0-0-0-------------------3-2----0-0-0-------------------------0-0-0--3-3-2-0-----0---
E-----------------------------------------------------------------------------------------------------------------4------



- BETONGBARN -

melodi-slinga:

D-------------------------------------------2-3-2-------------
A --0--2-3-0--------2-3-0---0--2-3-0----------2-3-0-----
E ----------------1-1------------------------------------------

vers:

Am....C....F....D..G..

refräng:

Am..C..F..G..

- BETONGENS KUNGAR -


riff:

Gm..Gm..A#..C..

vers:

Gm....Cm....D#..A#..F....
Gm....Cm....D#..A#..F....
Gm....Cm....D#..A#..F....
Gm....Cm....D#..A#..Gm....

refräng:

Gm..D#..F..A#..
A#.F.Dm....F....

solo:

C#dim............
Gm..Gm..A#..C..
Gm..Gm..A#..C..
Am..Am..C..D..
Am..Am..C..D..

upphöjd refräng:

Am..F..G..C..
C.G.Em....G....

riff (andra hälften):

E-------------------------------------
B-------------------------------------
G--7-7--5-7-7----7-3-3--3-5-5----
D--0-0--3-5-5----5-3-0--3-2-2----
A-------------------------------------
E--------------------------------------


- BLOD, SVETT OCH TÅRAR -

Intro:

Am..Em..F.G.C..Am..G..C..Em..Am..Em..F.G.C..Am..Em..Am....

Vers:

Am....F....Am....F....Am....D....C..G..A....

Stick:

Am....B.C....G....Em.....

Refräng:

Am..C..G..Em..F....C..G..

Solo:

D ---------------------2-2-2-2-2-2-2-2--------------------------
A -----------2-2-2-2---------------------2222-0-2-3-3-3-3----
E--0-0-0-0---------------------------------------------------------

- FRÅN FRONTEN TILL DIG -


vers och melodi-slingor:

Em....C....G....D....

brygga:

C....C.C/B.C/A.C/G.
Em....D....

melodi-slinga 1:

E----------------------------------------------------------------
B----------------------------------------------------------------
G----------------------------------------------------------------
D---------------------2-----------------------------------------
A--2--2---2-2-3--3---3-3-5--5-5-3-2-3-5--5-5-3-2-3----
E--------0------------------------------------------------------


melodi-slinga 2:

E-------------------------------------------------------
B-------------------------------------------------------
G-------------------------------------------------------
D--5--5-5-4-2-5--5-5-4-2-5--5-5-4-5-7--5-4-----
A-------------------------------------------------------
E--------------------------------------------------------



- GUD HÖR BÖN -


melodi-slinga:

Em....C....Bm....B....

riff:

Em....Em....Am....C....

vers:

Em....Em....C....G..D..

refräng:

Em....C....D....Bm....

melodi-slinga:

E---------------------------------------------
B---------------------------------------------
G---------------------------------------------
D---------------------------------------------
A---------2-3--2-0-----0-2-----------------
E---0--3-------------2--------2----2-1-0---


riff (gitarr 1):

E-----------------------------------------------------------------------------------
B-----------------------------------------------------------------------------------
G-----------------------------------------------------------------------------------
D---------------------------------------------10-10-9-7--7-9-10-9-7-----------
A-----10-10-9-7-9-----10-10-9-7-9---0-----------------------------10-9-----
E---0------------------0------------------------------------------------------------


riff (gitarr 2):

E-----------------------------------------------------------------------------------------------------
B-----------------------------------------------------------------------------------------------------
G-----------------------------------------------------------------------------------------------------
D------------------------------------------------------14-14-12-10--10-12-14-12-10-9--------
A-----14-14-12-10-12-----14-14-12-10-12---0-----------------------------------------12----
E---0-----------------------0------------------------------------------------------------------------



- LEVANDE DÖD -


vers och melodi-slinga:

Dm....Dm....C....G....

brygga:

A#....A#....A....A....

refräng:

Dm....F....Am....Am....

melodi-slinga:

E----------------------------------------------------
B----------------------------------------------------
G----------------------------------------------------
D--0--0--3-2--7--------2--2--3-2--5--3--2------
A----------------------------------------------------
E-----------------------------------------------------



- MAKTEN OCH HÄRLIGHETEN -


riff och vers:

Am....Am....F....Dm..G..

brygga:

F....Dm....C....E....

refräng:

Am....F....G....C..Em..

folkmusik-slinga:

Am....E....Am....E....
F..Am..D..Am..D....E..Am..

riff:

E----------------------------------------------------------------------------------------------
B----------------------------------------------------------------------------------------------
G----------------------------------------------------------------------------------------------
D----------------------------------------------------------------------------------------------
A--0-0--0-0-3-2-0-----0-0--0-0-3-2-0-----0-0--0-0-3-2-0-----5-5--5-2-3-2-3-2----
E---------------------3---------------------3---------------------3---------------------------


folkmusik-slinga:

E-------------------------------------------------------------------------------------------------------------------------------
B-------------------------------------------------------------------------------------------------------------------------------
G---------------------------------------------------------------------------5-7-9---7-9-11-9-------7------------------------
D-------------------------------------------------------------------------------------------------7-9---10-9-7---9-7-6-7---
A--2-3-3-0-2-3-3--2-3-2-0---------2-3-3-0-2-3-3--2-3-2-0---------3-5-7---5-7-9-7---------------------------------
E-------------------------------4-0---------------------------------4-0-------------------------------------------------------



- MENINGSLÖST LIV -


vers, riff och solo:

F#m....Bm....D....E....

refräng:

Bm....Bm....D....E....

slut-slag:

F#.F.E.D#.D.C#.C.Bm....


- SYNEN -


riff:

Dm....Dm....Gm....C....

vers:

Dm........A#....C....
Dm....Dm....Am....C....

brygga:

F....C....Gm....A#..C..
F....C....A#....A....

refräng:

Dm....A#..Gm..Dm....A#..Gm..
Dm....A#..Gm..Am....C....
Dm....A#..Gm..Dm....A#..Gm..
Dm....A#..Gm..Am....C..A3..

melodi-slinga:

Dm....Dm....C....C....
A#....A#....Am....Am....A3..Dm..

riff:

E---------------------------------
B---------------------------------
G-----3-2-------------0----------
D--0------0--------0----3-2-----
A--------------0-1-----------3---
E----------------------------------


kort melodi-slinga efter refräng:

E-------------------------------
B-------------------------------
G-------------------------------
D-------------------------------
A--5-4-5-7-5-7-8-7-5-4-0--
E-------------------------------


melodi-slinga (gitarr 1):

E-------------------------------------------------------------------------
B-------------------------------------------------------------------------
G-------------------------------------------------------------------------
D-------------------------------------------------------------------------
A--5---7-8--7-5-7-8-7-5-3----5---7-8--7-5-7-8-7-5-4--0--4--5--
E-------------------------------------------------------------------------


melodi-slinga (gitarr 2, andra hälften):

E-------------------------------------------------------------------------
B-------------------------------------------------------------------------
G--------------------------------------2-3--2---------------------------
D--3---5-7--5-3-5-7-5-3-2----3------------3-5-7-5-3-2-----2--3--
A--------------------------------------------------------------4---------
E-------------------------------------------------------------------------



- TOMMA ORD -


riff:

Em....C....Am....Em....
G....G....A........

vers:

Bm....Em....A....D....
Bm....Em....D....F#m....
Bm....Em....A....D....
Bm....Em....F#m....F#m....F#m....D..A..

refräng:

Bm....Bm....G....G....
D....Em....F#m....D..A..(x3)
Bm....Bm....G....G....
D....Em....F#m....C#....

melodi-slinga:

Em....Em....D....D....
C....C....B....B....

efter plock:

G....C....D........

riff (gitarr 1):

E----------------------------------------------------------------------------------
B----------------------------------------------------------------------------------
G----------------------------------------------------------------------------------
D--2--(4)5-4-2--(4)5-4-2--(4)5-4-2--2-0------------------------------------
A--------------3----------0-------------------2-2-2-2--2-5--7-7-7-7----------
E--0-----------------------------------0-------3-3-3-3--3-3--5-5-5-5-0-3-2--


riff (gitarr 2):

E----------------------------------------------------------------------------------
B----------------------------------------------------------------------------------
G----------------------------------------------------------------------------------
D-----(7)9-7-5--(9)10-9----(9)10-9-------------------------------------------
A--7-----------------------9------------7--7-5--------------5--7-7-7-7--------
E-------------------------------------------------7-7-7-7--7---------------------


melodi-slinga:

E-------------------------------------------------------------
B-------------------------------------------------------------
G--------------4--5-4-2-------------------------------------
D-------2---5-------------4-0--2-4-5--2-2--1-2-4--1----
A--2-2---------------------------------------------------2--
E-------------------------------------------------------------


plock:

E-----------------------------------------
B-----------------------------------------
G--------0---------0--------0--------0--
D-----2---------0--------2--------4-----
A----------------------3--------5--------
E--0---------3----------------------------



- UBÅTEN -


Cm.... (eller annat valfritt ackord)

-VINDAR BLÅSER HÅRDA-


Melodi-slinga 1:

G-----------------------------------------------------------2-0-2----------------------------------
D---------------------------------------0---0-----------2---------3-2-0-2--3--2--0-3-2-0------
A--0-0--2-3---3-3-2-0-2---2-2--3---------3-2-0-----------------------------------------------

Melodi-slinga 2:

G ----------------------0----------0---------------------------
D -------2-2-0-2-3------3-2-------3-2-2-2-0--------------------------------
A --0--------------------------2-----------------3-2-0------------

Vers:

Am....F....B....Em...

Refräng:

C....D....Em........